Rusted Root - Beautiful People (var.4) Chords download free or play online

Chords for Beautiful People (var.4) by Rusted Root free download and read or play online: file .txt, 1.62 kb has 96 views and 0 downloads.

Download chords "Beautiful People (var.4)" (Rusted Root)

Rusted Root Band name
Beautiful People Song name
Chords Tab type
1.62 kb File size
.TXT File type
96 views
0 downloads
 
Are you robot?

Beautiful People (var.4) chords read and play online

                    #
Title:  "Beautiful People" .
music by Rusted Root
Words by Mike Glabicki,

*originally submitted by Matt Ittigson ittigson@pps.pgh.pa.us
and Matthew Tanzer

(for intro finger pick chords, add occasioal suspended fourths on D, A,
and G)

*the following tab was submitted
Thursday, December 11, 1997
by Rich Jarvis   RichJ035@AOL.com

  ^ indicates strings played with index finger

    D                    A
----------2--------------------2---------
--------3---3----------------2---2-------
------2---------2----------2---------2---
----0---------0----------2---------2-----
-----------------------------------------
-----------------------------------------
          ^ ^                  ^ ^
    Come ..

    C                    G
----------0--------------------3---------
------------1--------------------0-------
--------0-------0------------0-------0---
------2-------2------------0-------0-----
----3------------------------------------
-------------------------3---------------
          ^ ^                  ^ ^
    Maybe ..

D                  A
Maybe ..
C                 G
Pure ..

D         A
For ..
C     G
Daddy ..
D       A       C       G
Oooh (held)

Same chords for the rest of the song.

Chorus:
Why ..
Brushed ..
Brushed ..
Whoa..
Brush ..
Brush ..

verse

verse

Chorus:


Repeat last line.

Instrumental and Voices                    

Comments for chords — Beautiful People (var.4) (Rusted Root)

Other Beautiful People (var.4) by Rusted Root tabs:

Last viewed Rusted Root tabs: