Rusted Root - Send Me On My Way (var.3) Chords download free or play online

Chords for Send Me On My Way (var.3) by Rusted Root free download and read or play online: file .txt, 1.53 kb has 104 views and 0 downloads.

Download chords "Send Me On My Way (var.3)" (Rusted Root)

Rusted Root Band name
Send Me On My Way Song name
Chords Tab type
1.53 kb File size
.TXT File type
104 views
0 downloads
 
Are you robot?

Send Me On My Way (var.3) chords read and play online

                    "Send Me On My Way" by Rusted Root
Transcribed by Jonathan Gilana
March 24, 1995

Word corrections by people who know, in the 'burgh.

(Play this riff during the first verse and outro)
  C
e-------3--3--------------3--3--------------3--3--------------3--3--------
B-1-----------1-1-1--1----------1-1-1--1----------1-1-1--1----------1-1-1-
G----0------------------0-----------------0-----------------0-------------
D-------------------------------------------------------------------------
A-3------------------3-----------------3-----------------3----------------
E-------------------------------------------------------------------------

  F
e-------3--3--------------3--3--------------3--3--------------3--3--------
B-1-----------1-1-1--1----------1-1-1--1----------1-1-1--1----------1-1-1-
G----2------------------2-----------------2-----------------2-------------
D-3------------------3-----------------3-----------------3----------------
A-------------------------------------------------------------------------
E-------------------------------------------------------------------------

* distinguishes he says the words really fast


Verse 1:

C
I ..
F
bummela ..
C
Well ..
F
bummela ..

Chorus:
      Am                G   F  
Well..
Am			  G	      F
How ..
Am               G   F  
I ..
Am			  G	      F
How ..

Verse 2:

Send .....

Verse 1 (no riff) (2x)
Chorus
Verse 2
Instrumental
Chorus

Bridge:
Am
Send ..
F
Send ...
C                 G  
Send ..

Repeat Bridge
Verse 1 (w/ riff)



gilajon@minna.acc.iit.edu

word corrections:  ittigson@pps.pgh.pa.us                    

Comments for chords — Send Me On My Way (var.3) (Rusted Root)

Other Send Me On My Way (var.3) by Rusted Root tabs:

Last viewed Rusted Root tabs: