Rusted Root - Send Me On My Way (var.6) Guitar tab download free or play online

Guitar tab for Send Me On My Way (var.6) by Rusted Root free download and read or play online: file .txt, 1.71 kb has 110 views and 0 downloads.

Download guitar tab "Send Me On My Way (var.6)" (Rusted Root)

Rusted Root Band name
Send Me On My Way Song name
Guitar tabs Tab type
1.71 kb File size
.TXT File type
110 views
0 downloads
 
Are you robot?

Send Me On My Way (var.6) guitar tab read and play online

                    Date: Mon, 15 Jan 2001 16:30:05 -0500
From: Dugxch74@aol.com
Subject: r/rusted_root/send_me_on_my_way.tab

----------------------
"Send Me On My Way" 
by Rusted Root
Tabbed by Dougie Fresh
1.15.01



C
e-------3--3--------------3--3--------------3--3--------------3--3-------- 
B-1-----------3p0h3--1----------3p0h3--1----------3p0h3--1----------3p0h3- 
G----0------------------0-----------------0-----------------0------------- 
D------------------------------------------------------------------------- 
A-3------------------3-----------------3-----------------3---------------- 
E------------------------------------------------------------------------- 

F 
e-------3--3--------------3--3--------------3--3--------------3--3--------
B-1-----------3p0h3--1----------3p0h3--1----------3p0h3--1----------3p0h3- 
G----2------------------2-----------------2-----------------2------------- 
D-3------------------3-----------------3-----------------3---------------- 
A------------------------------------------------------------------------- 
E------------------------------------------------------------------------- 


Verse 1:
C
I would ....
F
bummela say, bummela aah! (he doesn't really say anything of meaning here)
C
Well pick me ....
F
bummela say, bummela aah!

Chorus:
Am                    G    F  
Well, I would like to hold m...
Am            G       F
How we will run, we will...
Am               G   F
I would like to hold m...
Am            G       F
How we will run, we will....

Verse 2:
Send me on my way...
Verse 1 (no riff) (2x)
Chorus
Verse 2
Instrumental
Chorus
Bridge:
Am
Send me on my way
F
Send me on my way
C                 G
Send me on my way         
Repeat Bridge
Verse 1 (w/ riff)

dugxch74@aol.com
A Fresh tab by Dougie Fresh                    

Comments for guitar tab — Send Me On My Way (var.6) (Rusted Root)

Other Send Me On My Way (var.6) by Rusted Root tabs:

Last viewed Rusted Root tabs: